ISO-10303-21;
HEADER;
/* Generated by software containing ST-Developer
 * from STEP Tools, Inc. (www.steptools.com) 
 */
/* OPTION: using custom schema-name function */

FILE_DESCRIPTION(
/* description */ (''),
/* implementation_level */ '2;1');

FILE_NAME(
/* name */ 'EX-FD44.stp',
/* time_stamp */ '2023-04-10T10:16:25+08:00',
/* author */ (''),
/* organization */ (''),
/* preprocessor_version */ 'ST-DEVELOPER v16.7',
/* originating_system */ 'SIEMENS PLM Software NX 12.0',
/* authorisation */ '');

FILE_SCHEMA (('AUTOMOTIVE_DESIGN { 1 0 10303 214 3 1 1 1 }'));
ENDSEC;

DATA;
#10=SHAPE_REPRESENTATION_RELATIONSHIP('None',
'relationship between EX-FD44-None and EX-FD44-None',#22,#11);
#11=ADVANCED_BREP_SHAPE_REPRESENTATION('EX-FD44-None',(#32),#430);
#12=SHAPE_DEFINITION_REPRESENTATION(#13,#22);
#13=PRODUCT_DEFINITION_SHAPE('','',#14);
#14=PRODUCT_DEFINITION(' ','',#16,#15);
#15=PRODUCT_DEFINITION_CONTEXT('part definition',#21,'design');
#16=PRODUCT_DEFINITION_FORMATION_WITH_SPECIFIED_SOURCE(' ',' ',#18,
 .NOT_KNOWN.);
#17=PRODUCT_RELATED_PRODUCT_CATEGORY('part','',(#18));
#18=PRODUCT('EX-FD44','EX-FD44',' ',(#19));
#19=PRODUCT_CONTEXT(' ',#21,'mechanical');
#20=APPLICATION_PROTOCOL_DEFINITION('international standard',
'automotive_design',2010,#21);
#21=APPLICATION_CONTEXT(
'core data for automotive mechanical design processes');
#22=SHAPE_REPRESENTATION('EX-FD44-None',(#262),#430);
#23=PRESENTATION_LAYER_ASSIGNMENT('1','Layer 1',(#32));
#24=STYLED_ITEM('',(#25),#32);
#25=PRESENTATION_STYLE_ASSIGNMENT((#26));
#26=SURFACE_STYLE_USAGE(.BOTH.,#27);
#27=SURFACE_SIDE_STYLE('',(#28));
#28=SURFACE_STYLE_FILL_AREA(#29);
#29=FILL_AREA_STYLE('',(#30));
#30=FILL_AREA_STYLE_COLOUR('',#31);
#31=COLOUR_RGB('Orange',1.,0.6,0.);
#32=MANIFOLD_SOLID_BREP('',#33);
#33=CLOSED_SHELL('',(#70,#71,#72,#73,#74,#75,#76,#77,#78,#79,#80,#81,#82,
#83,#84));
#34=CYLINDRICAL_SURFACE('',#278,1.05);
#35=CYLINDRICAL_SURFACE('',#279,1.05);
#36=CYLINDRICAL_SURFACE('',#281,0.25);
#37=CYLINDRICAL_SURFACE('',#284,0.25);
#38=CYLINDRICAL_SURFACE('',#287,0.5);
#39=CYLINDRICAL_SURFACE('',#289,0.5);
#40=FACE_BOUND('',#103,.T.);
#41=FACE_BOUND('',#104,.T.);
#42=FACE_BOUND('',#105,.T.);
#43=FACE_BOUND('',#108,.T.);
#44=FACE_BOUND('',#109,.T.);
#45=FACE_BOUND('',#110,.T.);
#46=FACE_BOUND('',#111,.T.);
#47=FACE_BOUND('',#112,.T.);
#48=FACE_BOUND('',#113,.T.);
#49=FACE_BOUND('',#114,.T.);
#50=FACE_BOUND('',#115,.T.);
#51=FACE_BOUND('',#116,.T.);
#52=FACE_BOUND('',#117,.T.);
#53=FACE_BOUND('',#118,.T.);
#54=FACE_BOUND('',#119,.T.);
#55=FACE_BOUND('',#121,.T.);
#56=FACE_BOUND('',#122,.T.);
#57=CIRCLE('',#264,0.25);
#58=CIRCLE('',#265,0.25);
#59=CIRCLE('',#268,0.5);
#60=CIRCLE('',#269,0.5);
#61=CIRCLE('',#270,0.5);
#62=CIRCLE('',#272,1.05);
#63=CIRCLE('',#273,1.05);
#64=CIRCLE('',#275,1.05);
#65=CIRCLE('',#276,1.05);
#66=CIRCLE('',#280,0.25);
#67=CIRCLE('',#283,0.25);
#68=CIRCLE('',#286,0.5);
#69=CIRCLE('',#288,0.5);
#70=ADVANCED_FACE('',(#94),#85,.F.);
#71=ADVANCED_FACE('',(#40,#41,#42),#86,.F.);
#72=ADVANCED_FACE('',(#95),#87,.F.);
#73=ADVANCED_FACE('',(#96),#88,.F.);
#74=ADVANCED_FACE('',(#43,#44,#45),#89,.T.);
#75=ADVANCED_FACE('',(#46,#47,#48),#90,.F.);
#76=ADVANCED_FACE('',(#49,#50),#34,.F.);
#77=ADVANCED_FACE('',(#51,#52),#35,.F.);
#78=ADVANCED_FACE('',(#53,#54),#36,.F.);
#79=ADVANCED_FACE('',(#97),#91,.T.);
#80=ADVANCED_FACE('',(#55,#56),#37,.F.);
#81=ADVANCED_FACE('',(#98),#92,.T.);
#82=ADVANCED_FACE('',(#99),#38,.T.);
#83=ADVANCED_FACE('',(#100),#39,.T.);
#84=ADVANCED_FACE('',(#101),#93,.T.);
#85=PLANE('',#263);
#86=PLANE('',#266);
#87=PLANE('',#267);
#88=PLANE('',#271);
#89=PLANE('',#274);
#90=PLANE('',#277);
#91=PLANE('',#282);
#92=PLANE('',#285);
#93=PLANE('',#290);
#94=FACE_OUTER_BOUND('',#102,.T.);
#95=FACE_OUTER_BOUND('',#106,.T.);
#96=FACE_OUTER_BOUND('',#107,.T.);
#97=FACE_OUTER_BOUND('',#120,.T.);
#98=FACE_OUTER_BOUND('',#123,.T.);
#99=FACE_OUTER_BOUND('',#124,.T.);
#100=FACE_OUTER_BOUND('',#125,.T.);
#101=FACE_OUTER_BOUND('',#126,.T.);
#102=EDGE_LOOP('',(#127,#128,#129,#130,#131));
#103=EDGE_LOOP('',(#132));
#104=EDGE_LOOP('',(#133));
#105=EDGE_LOOP('',(#134,#135,#136,#137));
#106=EDGE_LOOP('',(#138,#139,#140,#141));
#107=EDGE_LOOP('',(#142,#143,#144,#145,#146,#147,#148,#149));
#108=EDGE_LOOP('',(#150));
#109=EDGE_LOOP('',(#151));
#110=EDGE_LOOP('',(#152,#153,#154,#155));
#111=EDGE_LOOP('',(#156));
#112=EDGE_LOOP('',(#157));
#113=EDGE_LOOP('',(#158,#159,#160,#161));
#114=EDGE_LOOP('',(#162));
#115=EDGE_LOOP('',(#163));
#116=EDGE_LOOP('',(#164));
#117=EDGE_LOOP('',(#165));
#118=EDGE_LOOP('',(#166));
#119=EDGE_LOOP('',(#167));
#120=EDGE_LOOP('',(#168));
#121=EDGE_LOOP('',(#169));
#122=EDGE_LOOP('',(#170));
#123=EDGE_LOOP('',(#171));
#124=EDGE_LOOP('',(#172,#173,#174,#175));
#125=EDGE_LOOP('',(#176,#177,#178,#179,#180));
#126=EDGE_LOOP('',(#181,#182));
#127=ORIENTED_EDGE('',*,*,#204,.T.);
#128=ORIENTED_EDGE('',*,*,#205,.F.);
#129=ORIENTED_EDGE('',*,*,#206,.F.);
#130=ORIENTED_EDGE('',*,*,#207,.T.);
#131=ORIENTED_EDGE('',*,*,#208,.T.);
#132=ORIENTED_EDGE('',*,*,#209,.F.);
#133=ORIENTED_EDGE('',*,*,#210,.F.);
#134=ORIENTED_EDGE('',*,*,#211,.T.);
#135=ORIENTED_EDGE('',*,*,#212,.F.);
#136=ORIENTED_EDGE('',*,*,#213,.F.);
#137=ORIENTED_EDGE('',*,*,#205,.T.);
#138=ORIENTED_EDGE('',*,*,#214,.T.);
#139=ORIENTED_EDGE('',*,*,#215,.F.);
#140=ORIENTED_EDGE('',*,*,#216,.F.);
#141=ORIENTED_EDGE('',*,*,#212,.T.);
#142=ORIENTED_EDGE('',*,*,#217,.F.);
#143=ORIENTED_EDGE('',*,*,#218,.F.);
#144=ORIENTED_EDGE('',*,*,#207,.F.);
#145=ORIENTED_EDGE('',*,*,#219,.F.);
#146=ORIENTED_EDGE('',*,*,#215,.T.);
#147=ORIENTED_EDGE('',*,*,#220,.T.);
#148=ORIENTED_EDGE('',*,*,#208,.F.);
#149=ORIENTED_EDGE('',*,*,#221,.F.);
#150=ORIENTED_EDGE('',*,*,#222,.F.);
#151=ORIENTED_EDGE('',*,*,#223,.F.);
#152=ORIENTED_EDGE('',*,*,#206,.T.);
#153=ORIENTED_EDGE('',*,*,#213,.T.);
#154=ORIENTED_EDGE('',*,*,#216,.T.);
#155=ORIENTED_EDGE('',*,*,#219,.T.);
#156=ORIENTED_EDGE('',*,*,#224,.T.);
#157=ORIENTED_EDGE('',*,*,#225,.T.);
#158=ORIENTED_EDGE('',*,*,#204,.F.);
#159=ORIENTED_EDGE('',*,*,#220,.F.);
#160=ORIENTED_EDGE('',*,*,#214,.F.);
#161=ORIENTED_EDGE('',*,*,#211,.F.);
#162=ORIENTED_EDGE('',*,*,#225,.F.);
#163=ORIENTED_EDGE('',*,*,#223,.T.);
#164=ORIENTED_EDGE('',*,*,#224,.F.);
#165=ORIENTED_EDGE('',*,*,#222,.T.);
#166=ORIENTED_EDGE('',*,*,#226,.T.);
#167=ORIENTED_EDGE('',*,*,#210,.T.);
#168=ORIENTED_EDGE('',*,*,#226,.F.);
#169=ORIENTED_EDGE('',*,*,#227,.T.);
#170=ORIENTED_EDGE('',*,*,#209,.T.);
#171=ORIENTED_EDGE('',*,*,#227,.F.);
#172=ORIENTED_EDGE('',*,*,#217,.T.);
#173=ORIENTED_EDGE('',*,*,#228,.F.);
#174=ORIENTED_EDGE('',*,*,#229,.F.);
#175=ORIENTED_EDGE('',*,*,#230,.F.);
#176=ORIENTED_EDGE('',*,*,#221,.T.);
#177=ORIENTED_EDGE('',*,*,#218,.T.);
#178=ORIENTED_EDGE('',*,*,#230,.T.);
#179=ORIENTED_EDGE('',*,*,#231,.F.);
#180=ORIENTED_EDGE('',*,*,#228,.T.);
#181=ORIENTED_EDGE('',*,*,#229,.T.);
#182=ORIENTED_EDGE('',*,*,#231,.T.);
#183=VERTEX_POINT('',#366);
#184=VERTEX_POINT('',#367);
#185=VERTEX_POINT('',#369);
#186=VERTEX_POINT('',#371);
#187=VERTEX_POINT('',#373);
#188=VERTEX_POINT('',#377);
#189=VERTEX_POINT('',#379);
#190=VERTEX_POINT('',#381);
#191=VERTEX_POINT('',#383);
#192=VERTEX_POINT('',#387);
#193=VERTEX_POINT('',#389);
#194=VERTEX_POINT('',#393);
#195=VERTEX_POINT('',#394);
#196=VERTEX_POINT('',#401);
#197=VERTEX_POINT('',#403);
#198=VERTEX_POINT('',#406);
#199=VERTEX_POINT('',#408);
#200=VERTEX_POINT('',#413);
#201=VERTEX_POINT('',#417);
#202=VERTEX_POINT('',#421);
#203=VERTEX_POINT('',#423);
#204=EDGE_CURVE('',#183,#184,#232,.T.);
#205=EDGE_CURVE('',#185,#184,#233,.T.);
#206=EDGE_CURVE('',#186,#185,#234,.T.);
#207=EDGE_CURVE('',#186,#187,#235,.T.);
#208=EDGE_CURVE('',#187,#183,#236,.T.);
#209=EDGE_CURVE('',#188,#188,#57,.T.);
#210=EDGE_CURVE('',#189,#189,#58,.T.);
#211=EDGE_CURVE('',#184,#190,#237,.T.);
#212=EDGE_CURVE('',#191,#190,#238,.T.);
#213=EDGE_CURVE('',#185,#191,#239,.T.);
#214=EDGE_CURVE('',#190,#192,#240,.T.);
#215=EDGE_CURVE('',#193,#192,#241,.T.);
#216=EDGE_CURVE('',#191,#193,#242,.T.);
#217=EDGE_CURVE('',#194,#195,#59,.T.);
#218=EDGE_CURVE('',#187,#194,#60,.T.);
#219=EDGE_CURVE('',#193,#186,#243,.T.);
#220=EDGE_CURVE('',#192,#183,#244,.T.);
#221=EDGE_CURVE('',#195,#187,#61,.T.);
#222=EDGE_CURVE('',#196,#196,#62,.T.);
#223=EDGE_CURVE('',#197,#197,#63,.T.);
#224=EDGE_CURVE('',#198,#198,#64,.T.);
#225=EDGE_CURVE('',#199,#199,#65,.T.);
#226=EDGE_CURVE('',#200,#200,#66,.T.);
#227=EDGE_CURVE('',#201,#201,#67,.T.);
#228=EDGE_CURVE('',#202,#195,#245,.T.);
#229=EDGE_CURVE('',#203,#202,#68,.T.);
#230=EDGE_CURVE('',#194,#203,#246,.T.);
#231=EDGE_CURVE('',#202,#203,#69,.T.);
#232=LINE('',#365,#247);
#233=LINE('',#368,#248);
#234=LINE('',#370,#249);
#235=LINE('',#372,#250);
#236=LINE('',#374,#251);
#237=LINE('',#380,#252);
#238=LINE('',#382,#253);
#239=LINE('',#384,#254);
#240=LINE('',#386,#255);
#241=LINE('',#388,#256);
#242=LINE('',#390,#257);
#243=LINE('',#396,#258);
#244=LINE('',#397,#259);
#245=LINE('',#420,#260);
#246=LINE('',#424,#261);
#247=VECTOR('',#293,1.);
#248=VECTOR('',#294,1.);
#249=VECTOR('',#295,1.);
#250=VECTOR('',#296,1.);
#251=VECTOR('',#297,1.);
#252=VECTOR('',#304,1.);
#253=VECTOR('',#305,1.);
#254=VECTOR('',#306,1.);
#255=VECTOR('',#309,1.);
#256=VECTOR('',#310,1.);
#257=VECTOR('',#311,1.);
#258=VECTOR('',#318,1.);
#259=VECTOR('',#319,1.);
#260=VECTOR('',#352,1.);
#261=VECTOR('',#355,1.);
#262=AXIS2_PLACEMENT_3D('',#364,#291,#292);
#263=AXIS2_PLACEMENT_3D('',#375,#298,#299);
#264=AXIS2_PLACEMENT_3D('',#376,#300,#301);
#265=AXIS2_PLACEMENT_3D('',#378,#302,#303);
#266=AXIS2_PLACEMENT_3D('',#385,#307,#308);
#267=AXIS2_PLACEMENT_3D('',#391,#312,#313);
#268=AXIS2_PLACEMENT_3D('',#392,#314,#315);
#269=AXIS2_PLACEMENT_3D('',#395,#316,#317);
#270=AXIS2_PLACEMENT_3D('',#398,#320,#321);
#271=AXIS2_PLACEMENT_3D('',#399,#322,#323);
#272=AXIS2_PLACEMENT_3D('',#400,#324,#325);
#273=AXIS2_PLACEMENT_3D('',#402,#326,#327);
#274=AXIS2_PLACEMENT_3D('',#404,#328,#329);
#275=AXIS2_PLACEMENT_3D('',#405,#330,#331);
#276=AXIS2_PLACEMENT_3D('',#407,#332,#333);
#277=AXIS2_PLACEMENT_3D('',#409,#334,#335);
#278=AXIS2_PLACEMENT_3D('',#410,#336,#337);
#279=AXIS2_PLACEMENT_3D('',#411,#338,#339);
#280=AXIS2_PLACEMENT_3D('',#412,#340,#341);
#281=AXIS2_PLACEMENT_3D('',#414,#342,#343);
#282=AXIS2_PLACEMENT_3D('',#415,#344,#345);
#283=AXIS2_PLACEMENT_3D('',#416,#346,#347);
#284=AXIS2_PLACEMENT_3D('',#418,#348,#349);
#285=AXIS2_PLACEMENT_3D('',#419,#350,#351);
#286=AXIS2_PLACEMENT_3D('',#422,#353,#354);
#287=AXIS2_PLACEMENT_3D('',#425,#356,#357);
#288=AXIS2_PLACEMENT_3D('',#426,#358,#359);
#289=AXIS2_PLACEMENT_3D('',#427,#360,#361);
#290=AXIS2_PLACEMENT_3D('',#428,#362,#363);
#291=DIRECTION('',(0.,0.,1.));
#292=DIRECTION('',(1.,0.,0.));
#293=DIRECTION('',(0.,-1.,0.));
#294=DIRECTION('',(-1.,0.,0.));
#295=DIRECTION('',(0.,-1.,0.));
#296=DIRECTION('',(-1.,0.,0.));
#297=DIRECTION('',(-1.,0.,0.));
#298=DIRECTION('',(0.,0.,-1.));
#299=DIRECTION('',(-1.,0.,0.));
#300=DIRECTION('',(0.,-1.,0.));
#301=DIRECTION('',(1.,0.,0.));
#302=DIRECTION('',(0.,-1.,0.));
#303=DIRECTION('',(1.,0.,0.));
#304=DIRECTION('',(0.,0.,-1.));
#305=DIRECTION('',(-1.,0.,0.));
#306=DIRECTION('',(0.,0.,-1.));
#307=DIRECTION('',(0.,1.,0.));
#308=DIRECTION('',(0.,0.,1.));
#309=DIRECTION('',(0.,1.,0.));
#310=DIRECTION('',(-1.,0.,0.));
#311=DIRECTION('',(0.,1.,0.));
#312=DIRECTION('',(0.,0.,1.));
#313=DIRECTION('',(1.,0.,0.));
#314=DIRECTION('',(0.,1.,0.));
#315=DIRECTION('',(1.,0.,0.));
#316=DIRECTION('',(0.,1.,0.));
#317=DIRECTION('',(1.,0.,0.));
#318=DIRECTION('',(0.,0.,1.));
#319=DIRECTION('',(0.,0.,1.));
#320=DIRECTION('',(0.,1.,0.));
#321=DIRECTION('',(1.,0.,0.));
#322=DIRECTION('',(0.,-1.,0.));
#323=DIRECTION('',(0.,0.,-1.));
#324=DIRECTION('',(1.,0.,0.));
#325=DIRECTION('',(0.,1.,0.));
#326=DIRECTION('',(1.,0.,0.));
#327=DIRECTION('',(0.,1.,0.));
#328=DIRECTION('',(1.,0.,0.));
#329=DIRECTION('',(0.,0.,-1.));
#330=DIRECTION('',(1.,0.,0.));
#331=DIRECTION('',(0.,1.,0.));
#332=DIRECTION('',(1.,0.,0.));
#333=DIRECTION('',(0.,1.,0.));
#334=DIRECTION('',(1.,0.,0.));
#335=DIRECTION('',(0.,0.,-1.));
#336=DIRECTION('',(1.,0.,0.));
#337=DIRECTION('',(0.,0.,-1.));
#338=DIRECTION('',(1.,0.,0.));
#339=DIRECTION('',(0.,0.,-1.));
#340=DIRECTION('',(0.,1.,0.));
#341=DIRECTION('',(1.,0.,0.));
#342=DIRECTION('',(0.,-1.,0.));
#343=DIRECTION('',(0.,0.,-1.));
#344=DIRECTION('',(0.,-1.,0.));
#345=DIRECTION('',(0.,0.,-1.));
#346=DIRECTION('',(0.,1.,0.));
#347=DIRECTION('',(1.,0.,0.));
#348=DIRECTION('',(0.,-1.,0.));
#349=DIRECTION('',(0.,0.,-1.));
#350=DIRECTION('',(0.,-1.,0.));
#351=DIRECTION('',(0.,0.,-1.));
#352=DIRECTION('',(0.,-1.,0.));
#353=DIRECTION('',(0.,1.,0.));
#354=DIRECTION('',(1.,0.,0.));
#355=DIRECTION('',(0.,1.,0.));
#356=DIRECTION('',(0.,-1.,0.));
#357=DIRECTION('',(0.,0.,-1.));
#358=DIRECTION('',(0.,1.,0.));
#359=DIRECTION('',(1.,0.,0.));
#360=DIRECTION('',(0.,-1.,0.));
#361=DIRECTION('',(0.,0.,-1.));
#362=DIRECTION('',(0.,1.,0.));
#363=DIRECTION('',(0.,0.,1.));
#364=CARTESIAN_POINT('',(0.,0.,0.));
#365=CARTESIAN_POINT('',(0.,8.,6.5));
#366=CARTESIAN_POINT('',(0.,8.,6.5));
#367=CARTESIAN_POINT('',(0.,0.,6.5));
#368=CARTESIAN_POINT('',(2.,0.,6.5));
#369=CARTESIAN_POINT('',(2.,0.,6.5));
#370=CARTESIAN_POINT('',(2.,8.,6.5));
#371=CARTESIAN_POINT('',(2.,8.,6.5));
#372=CARTESIAN_POINT('',(2.,8.,6.5));
#373=CARTESIAN_POINT('',(1.,8.,6.5));
#374=CARTESIAN_POINT('',(2.,8.,6.5));
#375=CARTESIAN_POINT('',(2.,8.,6.5));
#376=CARTESIAN_POINT('',(0.999999999999995,0.,3.9));
#377=CARTESIAN_POINT('',(1.24999999999999,0.,3.9));
#378=CARTESIAN_POINT('',(1.,0.,5.3));
#379=CARTESIAN_POINT('',(1.25,0.,5.3));
#380=CARTESIAN_POINT('',(0.,0.,6.5));
#381=CARTESIAN_POINT('',(0.,0.,0.));
#382=CARTESIAN_POINT('',(2.,0.,0.));
#383=CARTESIAN_POINT('',(2.,0.,0.));
#384=CARTESIAN_POINT('',(2.,0.,6.5));
#385=CARTESIAN_POINT('',(2.,0.,6.5));
#386=CARTESIAN_POINT('',(0.,0.,0.));
#387=CARTESIAN_POINT('',(0.,8.,0.));
#388=CARTESIAN_POINT('',(2.,8.,0.));
#389=CARTESIAN_POINT('',(2.,8.,0.));
#390=CARTESIAN_POINT('',(2.,0.,0.));
#391=CARTESIAN_POINT('',(2.,0.,0.));
#392=CARTESIAN_POINT('',(0.999507999561507,8.,5.01000024206449));
#393=CARTESIAN_POINT('',(1.07028809137393,8.,5.5049650676865));
#394=CARTESIAN_POINT('',(0.929219908184606,8.,5.50503517437795));
#395=CARTESIAN_POINT('',(1.,8.,6.));
#396=CARTESIAN_POINT('',(2.,8.,0.));
#397=CARTESIAN_POINT('',(0.,8.,0.));
#398=CARTESIAN_POINT('',(1.,8.,6.));
#399=CARTESIAN_POINT('',(2.,8.,0.));
#400=CARTESIAN_POINT('',(2.,6.,2.));
#401=CARTESIAN_POINT('',(2.,7.05,2.));
#402=CARTESIAN_POINT('',(2.,2.,2.));
#403=CARTESIAN_POINT('',(2.,3.05,2.));
#404=CARTESIAN_POINT('',(2.,0.,0.));
#405=CARTESIAN_POINT('',(0.,6.,2.));
#406=CARTESIAN_POINT('',(0.,7.05,2.));
#407=CARTESIAN_POINT('',(0.,2.,2.));
#408=CARTESIAN_POINT('',(0.,3.05,2.));
#409=CARTESIAN_POINT('',(0.,0.,0.));
#410=CARTESIAN_POINT('',(0.,2.,2.));
#411=CARTESIAN_POINT('',(0.,6.,2.));
#412=CARTESIAN_POINT('',(1.,0.05,5.3));
#413=CARTESIAN_POINT('',(1.25,0.05,5.3));
#414=CARTESIAN_POINT('',(1.,0.05,5.3));
#415=CARTESIAN_POINT('',(1.,0.05,5.3));
#416=CARTESIAN_POINT('',(0.999999999999995,0.05,3.9));
#417=CARTESIAN_POINT('',(1.24999999999999,0.05,3.9));
#418=CARTESIAN_POINT('',(0.999999999999995,0.05,3.9));
#419=CARTESIAN_POINT('',(0.999999999999995,0.05,3.9));
#420=CARTESIAN_POINT('',(0.929219908184606,28.,5.50503517437795));
#421=CARTESIAN_POINT('',(0.929219908184606,28.,5.50503517437795));
#422=CARTESIAN_POINT('',(0.999507999561507,28.,5.01000024206449));
#423=CARTESIAN_POINT('',(1.07028809137393,28.,5.5049650676865));
#424=CARTESIAN_POINT('',(1.07028809137393,28.,5.5049650676865));
#425=CARTESIAN_POINT('',(0.999507999561507,28.,5.01000024206449));
#426=CARTESIAN_POINT('',(1.,28.,6.));
#427=CARTESIAN_POINT('',(1.,28.,6.));
#428=CARTESIAN_POINT('',(0.999753999780754,28.,5.50500012103224));
#429=MECHANICAL_DESIGN_GEOMETRIC_PRESENTATION_REPRESENTATION('',(#24),#430);
#430=(
GEOMETRIC_REPRESENTATION_CONTEXT(3)
GLOBAL_UNCERTAINTY_ASSIGNED_CONTEXT((#431))
GLOBAL_UNIT_ASSIGNED_CONTEXT((#437,#433,#432))
REPRESENTATION_CONTEXT('EX-FD44','TOP_LEVEL_ASSEMBLY_PART')
);
#431=UNCERTAINTY_MEASURE_WITH_UNIT(LENGTH_MEASURE(2.E-5),#437,
'DISTANCE_ACCURACY_VALUE','Maximum Tolerance applied to model');
#432=(
NAMED_UNIT(*)
SI_UNIT($,.STERADIAN.)
SOLID_ANGLE_UNIT()
);
#433=(
CONVERSION_BASED_UNIT('DEGREE',#435)
NAMED_UNIT(#434)
PLANE_ANGLE_UNIT()
);
#434=DIMENSIONAL_EXPONENTS(0.,0.,0.,0.,0.,0.,0.);
#435=PLANE_ANGLE_MEASURE_WITH_UNIT(PLANE_ANGLE_MEASURE(0.0174532925),#436);
#436=(
NAMED_UNIT(*)
PLANE_ANGLE_UNIT()
SI_UNIT($,.RADIAN.)
);
#437=(
LENGTH_UNIT()
NAMED_UNIT(*)
SI_UNIT(.MILLI.,.METRE.)
);
ENDSEC;
END-ISO-10303-21;
